Acords Català

Sense tu

Teràpia de Shock

Àlbum: Escapa't amb mí
Any: 2008



      RE           SOL
És de nit.. és tot fosc...
      MIm         LA
estic sol i no hi ha ningú.

És de nit... un record...
dins el cor, ella hi és a dins.

Els seus ulls són brillants
i un somriure extravagant.

Ja no i és l'he perduda
va marxar lluny del meu abast
  SOL                  LA
i sempre estarà el meu cor...

      RE       SOL
Sense tu jo no puc
      MIm        LA
sense tu si no i ets
      RE       SOL    MIm
sense tu jo no sóc ningú...
x2

      RE           SOL 
És de nit.. és tot fosc...
         MIm                  LA
no estic sol no ho estic tu estàs amb mi.

Els teus ulls són brillants
i un somriure extravagant
  SOL                  LA
i sempre estarà el meu cor...

      RE       SOL
Sense tu jo no puc
      MIm        LA
sense tu si no i ets
      RE       SOL    MIm
sense tu jo no sóc ningú...
x2

    LA
No, noooo...

        RE    SOL
Si no estàs aquí,
        MIm     LA
si no estàs amb mi,
jo no et puc mirar,
jo no et puc sentir.

Si no estàs aquí,
si no estàs amb mi,
jo no et puc tocar,
jo no et puc besar,
  SOL                   LA
i sempre estaràs el meu cor....

És de nit...

 RE                 SOL
|2-----------------|-3-----------------|
|3-----------------|-0-----------------|
|2-----------------|-0-----------------|
|0--4-5-7-5--4/5/4-|-0--4-5-7-5--4/5/4-|
|x-----------------|-2-----------------|
|x-----------------|-3-----------------|

 MIm                 LA            RE
|-0-----------------|-0------------2---|
|-0-----------------|-2------------3---|
|-0-----------------|-2------------2---|
|-2--4-5-7-5--4/5/4-|-2--0-0-2-----0---|
|-2-----------------|-0--------4---x---|
|-0-----------------|-0------------x---|