Acords Català

Va com va

Ovidi Montllor

Àlbum: A Alcoi
Any: 1974



--Celleta al 2on trast per tocar-la en la tonalitat original--

Intro:
 LAm     SOL     DO      REm     LAm     MI
--0-0-0---3-3-3---0-0-0---1-1-1---0-0-0---0-0-0-
--1-1-1---0-0-0---1-1-1---3-3-3---1-1-1---0-0-0-
--2-2-2---0-0-0---0-0-0---2-2-2---2-2-2---1-1-1-
-------------------------0-------2--------------
-0---------------3------------------------------
---------3-------------------------------0------

 LAm     SOL     DO      REm     LAm      MI
--0-0-0---3-3-3---0-0-0---1-1-1---0-0-0---0-0-0-
--1-1-1---0-0-0---1-1-1---3-3-3---1-1-1---0-0-0-
--2-2-2---0-0-0---0-0-0---2-2-2---2-2-2---1-1-1-
-------------------------0-------2--------------
-0---------------3------------------------------
---------3-------------------------------0------

A partir d’aquí va repetint aquest arpegi tot la cançó, canviant l’acord quan toqui:
LAm
--0-0-0-----0---0---0-0-0---
--1-1-1-----1---1---1-1-1---
--2-2-2-----2---2---2-2-2---
---------2------------------
-0----------------0---------
--------------0-------------

LAm
A tu t'emprenya molt, que jo et tingui mania.
       SOL FA→SOL→LAm
Va com va.

A mi m'emprenya molt, que tu vagis fent cria.
Va com va. 

LAm
A tu t'han dit preciós, a mi m'han dit:
         FA       LAm
Tu calla.  Va com va. 

I jo no vull callar mentre tu tens la tralla. 
Va com va. Va com va.

LAm
A tu t'han dibuixat i jo trenque la ploma.
       SOL  FA→SOL→LAm
Va com va.
 
A mi m'han fet ple d'odi, a tu t'han fet de goma.
Va com va.

LAm
A tu t'han dat l'herència, a mi m'han dat
       FA       LAm
la vida. Va com va.

A mi em toca lluitar, a tu prendre la mida.
Va com va. Va com va

DO LAm SOL SOL SOL FA LAm SOL FA SOL LAm FA MI

LAm
Si jo no tinc per mi, si tu no en tens mai prou.
       SOL  FA→SOL→LAm
Va com va. 

I ets tu qui reps de mi, jo de tu cobre un sou.
Va com va. 

LAm
Si jo ja m'he cansat d'anar vivint
     FA          LAm
dient  el va com va,
pensa que sols diré fins que més no podré:
Va com vull. Com volem. 
x2