Acords Català

En Teo va a l’escola

Joan Dausà

Àlbum: On seràs demà
Any: 2014



--Tabulatura Introducció: Es va repetint des del principi de la cançó fins a “per Setmana Santa”.--
E|-X-X---------------------------------------------------------------------|
B|-X-X---------------------------------------------------------------------|
G|-X-X---------------------------------------------------------------------|
D|-X-X---2---2---2---2---2---2---2---2---2---2---2---2---2---2---2---2---2-|
A|-X-X-0---0---0---0---0---0---0---0---0---0---0---0---0---0---0---0---0---|
E|-X-X---------------------------------------------------------------------|

--Tabulatura Post-Introducció: Comença a partir del primer “parapapara” i es va repetint al llarg de la cançó.--
E|---------------------------------------------------------------------|
B|---------------------------------------------------------------------|
G|---------------------------------------------------------------------|
D|----2---2---2---2---2---2---2-------4---4---2---2---4---4---6---6----|
A|--0---0-----------------------2-4-5---5---0---0---5---5---7---7---7--|
E|----------4---4---2---2---0------------------------------------------|

LA
A classe de ciències els ha dit la mestra
que avui els tocava sortir a la pissarra
a parlar dels de casa i la feina que tenen
i on van de vacances per Setmana Santa.

--Just aquí comença la tabulatura Post-Introducció--

LA      MI  FA#m    LA
Para pa pa  para pa pa
RE      LA  RE      MI
Para pa pa  para pa pa.

       LA       MI      FA#m     LA
I el Lluís explicava que la seva mare
   RE        LA       RE         MI
li fa una torrada de mel i sobrassada
i l'Ester ensenyava aquella faldilla
que ven la botiga on treballa el seu pare.

     RE             MI
I el Teo, quan està sol,
LA        DO#m     FA#m              RE 
balla com balla la mare de l'Anna Jordà 
LA         DO#m        FA#m               RE
i xuta tan fort com el pare del Toni de quart
       SIm              RE            LA
i s'imagina que és un espia molt important.

--Tabulatura Post-Tornada: Comença just quan acaba la primera tornada i acaba quan comença la tercera estrofa.--
 -  LA      MI      FA#m    LA        RE      RE      MI      MI
E|------------------------------------------------------------------|
B|------------------------------------------------------------------|
G|------------------------------------------------------------------|
D|----2---2---2---2---2---2---2-------4---4---4---4---6---6---6-----|
A|--0---0-----------------------2-4-5---5---5---5---7---7---7---7---|
E|----------4---4---2---2---0---------------------------------------|

LA           MI        FA#m    LA
El Teo para taula i la iaia prepara
       RE         LA        RE            MI
hamburguesa amb patates que sap que li encanten
perquè avui a la tarda feia aquella cara
perquè fa massa temps que no hi són els seus pares.

LA      MI  FA#m    LA
Para pa pa  para pa pa
RE      LA  RE      MI
Para pa pa  para pa pa.

LA            MI        FA#m       LA
A classe de ciències els ha dit la mestra
      RE       LA      RE          MI
que avui els tocava sortir a la pissarra
i el Teo els parlava de la seva iaia
que juga a les dames i ell sempre la guanya.

          RE                MI
No explicarà que, quan està sol,
LA        DO#m     FA#m              RE
balla com balla la mare de l'Anna Jordà
LA         DO#m        FA#m               RE
i xuta tan fort com el pare del Toni de quart
       SIm              RE            LA
i s'imagina que és un espia molt important.

--Just en l’acord de LA comença la tabulatura Introducció.--

LA
A classe de ciències els ha dit la mestra
que avui els tocava parlar dels seus pares.